[Всички песни]
[Скрий Акордите]
[Редактирай песента]

Печат
Гама
C : G : D : A : E : B : F# : C# : F : Bb : Eb : Ab : Db : Gb

Магьосница


Изпълнител: Слави Трифонов

Изпратил: Giodimm, giosimm@yahoo.com

 
ИНТРО И КУПЛЕТ:
e------------------------------------------------------------
B------------------------------------------------------------
G-------5-4------------5-4------------7-5------------7-5-----
D-----5-----5--------5-----5--------6-----6--------6-----6---
A---5---------5----5---------5----6---------6----6---------6-
E-3--------------3--------------4--------------4-------------

e----------------------------------------------
B-------------------------P--------------------
G-------7-----8----5-----7^5------4--1------5--
D-----8---8-----8----6-------6----5--3------6--
A---8-------8----------6-------6-----3--- 6----
E-6----------------4--------------3--1--4------


1. Лутах се в тъмното и достигнах до дъното,
но да те забравя тъй и не можах. 
Вграждах си сянката във стени от мълчание и във
хладен огън спомени горях.
 
2. Думи не казани и очи не целунати, невъзможна ли е нашата
любов? След като нощ и ден вечно все се преследваме
и не можем да се слеем във едно.

Връзка:  [Fm] А- А - А-[G]А -А
 Припев:
[F5][G5][G]Мразя те,[Fm] обичам [G]те ! *2
[Cm]Всяка друга ми [Bb]напомня теб
[Ab]да не си магьосница[G] ?
[F5][G5][G]Мразя те,[Fm] обичам [G]те ! *2
[Cm]Всяка друга ми [Bb]напомня теб
[Ab] нямаш ли душа,[Fm]
[Ab] нямаш ли душа[G] ?

акорди за китара

акорди за пиано

© 2007-2017 akordite.com - Акорди и таблатури на български песни

Вход






Забравена парола
Нямате достъп?
Регистрирайте се!!!

Последни песни



Статистика

Песни: 1411
Потребители: 12557

В момента онлайн:

4 госта