[Всички песни]
[Скрий Акордите]
[Редактирай песента]

Печат
Гама
Am : Em : Bm : F#m : C#m : G#m : D#m : A#m : Dm : Gm : Dm : Fm : Bbm : Ebm : Abm

Песен за истината


Изпълнител: Атлас
Текст: Георги Константинов
Музика: група "Атлас"
Албум: "BG Rock ІV" (1989)
Изпратил: ivchovarna 

интро : Am G /x2

Куплет 1 :

       Am        G
       Стъпки, стъпки сред покоя.
       Am        G
       Стъпки, стъпки сред безброя.
       Am                G
       Търсят истината своя.
       Am                   G
       Трябва да я срещнат днес.

    Am              G
       Помогнете ми и вие
    Am             G
       истината да открия.
    Am              G
       Тя навярно има име -
    Am             G
       точна улица, адрес.

Припев : 

    D    A             G
       Може би до теб се смее.
    D    A         G
       може би сама живее.
    D  A          G
       И очаква моя поглед
    D     A          G
       в самотата й да спре.


Куплет 2 :

    Am               G
       Но адресът е погрешен,
    Am                  G
       и съм тъжен и съм смешен.
    Am                 G
       Но вървя, вървя отново
    Am              G
       между хиляди съдби.


    Am              G
       Истината ме вълнува.
    Am                 G
       Значи нейде съществува,
    Am               G
       може би със нея утре
    Am                  G
       ще се срещнем може би.

Припев :

    D    A             G
       Може би до теб се смее.
    D    A         G
       може би сама живее.
    D  A          G
       И очаква моя поглед
    D     A          G
       в самотата й да спре.


соло : E B A A / x2

  E          B       A               E         B        A

   e|9----------------------------------0--0---x---2--2-2--2-2--2-2-2-2-2-2-2-2|
   B|-9-10------------------------------0--0---x---4--4-4--2-2--2-2-2-2-2-2-2-2|
   G|------9----11-9-----------11-9h----1--1---x---4--4-4--2-2--2-2-2-2-2-2-2-2|
   D|----------------11-9------------------------------------------------------|
   A|--------------------------------------------------------------------------|
   E|--------------------------------------------------------------------------|



   e|9-9-9-------7--9-9-9------|
   B|-------9-7-----------7-9-7|
   G|--------------------------|
   D|--------------------------|
   A|--------------------------|
   E|--------------------------| (този риф се повтаря по време на последният припев)



Припев /х3 :

    E     B            A
       Може би до теб се смее.
    E    B         A
       може би сама живее.
    E   B          A
       И очаква моя поглед
    E     B          A
       в самотата й да спре.



аутро :  E B A A 



риф 1 : 


e|--0--|
B|----1|
G|2----|

риф 2 :

е|0----|
B|--3--|
G|----3

акорди за китара

акорди за пиано

видео клип


© 2007-2017 akordite.com - Акорди и таблатури на български песни

Вход






Забравена парола
Нямате достъп?
Регистрирайте се!!!

Последни песни



Статистика

Песни: 1411
Потребители: 12754

В момента онлайн:

1 гост и 1 потребител
  • ivo67