[Всички песни]
[Скрий Акордите]
[Редактирай песента]

Печат
Гама
C : G : D : A : E : B : F# : C# : F : Bb : Eb : Ab : Db : Gb

усмихнат и друг


Изпълнител: Панайот Панайотов - Пиер
Текст: Панайот Панайотов - пиер
Музика: Панайот Панайотов - Пиер
Изпратил: aikiken 

INTRO
eb|-----------3--2---------------0---------------------3-2-------------------------------------------------------|
Bb|----------0--0-----------------1-------------------0---0----------------------------------0------------------|
Gb|---------------0------------------0-2p0-------------------0---------0-----------------------4---------------|
Db|--------------------------------------------4------------------------2--------------3/5----------5------------|
Ab|----------------------3------------------------------------------3----------------------------------------------|
Eb|--0----------------------------------------------0--------------------------------------------------------------|

eb|-----------3-2----------------------3-2---------------3-2--------------------------------0-----------------|
Bb|----------0--0--------------------0---0--------------0-----0------------1------3-------5-----------------|
Gb|---------------0---------------------------0---------------------0------------------------------------------|
Db|----------------------------------------------------------------------------3------5------7-----------------|
Ab|--------------------------------------------------------------------------------------------------------------|
Eb|--0----------------------------0------------------0----------------------------------------------------------|

eb|-----------3--2---------------0---------------------3-2-------------0-------------------0-------------------|
Bb|----------0--0-----------------1-------------------0---0--------------1-------------------3----------------|
Gb|---------------0------------------0-2p0-------------------0-------------0-------------------0-------------|
Db|--------------------------------------------4--------------------------------------5--------------------------|
Ab|------------------3----------------------------------------------3--------------------------------------------|
Eb|--0----------------------------------------------0-------------------------------------------------------------|

eb|-----------3-2----------------------3-2---------------3-2--------------------------------0-----------------|
Bb|----------0--0--------------------0---0--------------0-----0------------1------3-------5-----------------|
Gb|---------------0---------------------------0---------------------0------------------------------------------|
Db|----------------------------------------------------------------------------3------5------7-----------------|
Ab|--------------------------------------------------------------------------------------------------------------|
Eb|--0----------------------------0------------------0----------------------------------------------------------|





куплет 1:

[Е]E5                        D5
Да съм обречен вече знам
[Е]E5                     C5 D5
Твойта мисъл аз не знам.
[Е]E5                           D5
Нямам вече сили да простя
[Е]E5                      C5 D5
Макар красива е нища.

[Е]	B5				          A5
Тръгнах аз без да се обърна
[Е]		   C5
 да търся в теб любовта.

eb|-----------3--2---------------0--------------------------------|
Bb|----------0--0-----------------1------------------------------|
Gb|---------------0------------------0--------------2------------|
Db|-----------------------------------------------2-----2---------|
Ab|------------------------3------------------0-------------------|
Eb|--0-------------------------------------------------------------|


куплет 2:

[Е]E5                   D5
Препънах се но пак ще стана
[Е]E5                       C5 D5
Бъдете сигурни във това
[Е]E5                   D5
Какво от туй някаква си драма
[Е]E5                    C5 D5
Неможе вече мене да ме спре

[Е]	B5                                            A5
	Ден след ден вървя напред
[Е]	                          C5
Очите ми търсят вечно теб







Припев:

eb|-----------3--2---------------0---------------------3-2-------------0-------------------0----------------|
Bb|----------0--0-----------------1-------------------0---0--------------1-------------------3-------------|
Gb|---------------0------------------0-2p0-------------------0-------------0-------------------0-----------|
Db|--------------------------------------------4--------------------------------------5------------------------|
Ab|------------------3----------------------------------------------3------------------------------------------|
Eb|--0----------------------------------------------0----------------------------------------------------------|

eb|-----------3-2----------------------3-2---------------3-2--------------------------------0---------------|
Bb|----------0--0--------------------0---0--------------0-----0------------1------3-------5----------------|
Gb|---------------0---------------------------0---------------------0-----------------------------------------|
Db|----------------------------------------------------------------------------3------5------7----------------|
Ab|-------------------------------------------------------------------------------------------------------------|
Eb|--0----------------------------0------------------0---------------------------------------------------------|


 
Да вече съм друг 
със мен и със друг
да вече знам вече
ти вече си с друг
аз също съм тук
подтиснат и в смут
да вече ти изрече
аз вече съм с друг

соло:...................................


ПРЕХОД
Ab|--2------5-3-2-----2-x-2-x------2------5-3-2-----2-x-2--*
Eb|--0-3-2---------3--0-x-0-x------0-3-2---------3--0-x-0--*
	
	Ден след ден вървя на пред
	Очите ми виждат вече теб.


ПРИПЕВ 2
 
eb|-----------3--2---------------0---------------------3-2-------------0-------------------0-----------------|
Bb|----------0--0-----------------1-------------------0---0--------------1-------------------3--------------|
Gb|---------------0------------------0-2p0-------------------0-------------0-------------------0-----------|
Db|--------------------------------------------4--------------------------------------5------------------------|
Ab|------------------3----------------------------------------------3------------------------------------------|
Eb|--0----------------------------------------------0----------------------------------------------------------|

eb|-----------3-2----------------------3-2---------------3-2--------------------------------0---------------|
Bb|----------0--0--------------------0---0--------------0-----0------------1------3-------5---------------|
Gb|---------------0---------------------------0---------------------0----------------------------------------|
Db|----------------------------------------------------------------------------3------5------7---------------|
Ab|------------------------------------------------------------------------------------------------------------|
Eb|--0----------------------------0------------------0--------------------------------------------------------|


Аз вече съм тук 
Усмихнат и друг
Да вече знам вече
Аз вече съм друг


акорди за китара

акорди за пиано

© 2007-2017 akordite.com - Акорди и таблатури на български песни

Вход






Забравена парола
Нямате достъп?
Регистрирайте се!!!

Последни песни



Статистика

Песни: 1411
Потребители: 12547

В момента онлайн:

19 госта и 1 потребител
  • todorovsof