[Всички песни]
[Скрий Акордите]
[Редактирай песента]

Печат
Гама
Am : Em : Bm : F#m : C#m : G#m : D#m : A#m : Dm : Gm : Dm : Fm : Bbm : Ebm : Abm

Ако умра ил загина


Изпълнител: Народни песни

Изпратил: Jacsons

Intro
    /4\
e----------------------------------------------------
b--7h8p7-5-7--5-7-5--5-5-5-7-5--5-5-5-7-5--5-5-5-7---
g------------7----------7----------7----------7------

    /4\
e----------------------------------------------------
b--7h8p7-5-7--5-7-5--5-5-5-7-5--5-5-5-7-5--5--5-7-8--
g------------7----------7----------7-----------------


e--5--5-5-5-5--5-7-----------------5--7-5-5--------------------------
b-------------8-----8--8-8-8-8-7-8-------8--7-5--5-5-5-5--7-7-8-8-
g--------------------------------------------7-----------------------


e--5--5-5-5-5--5-7-----------------5--7-5-5--------------------------
b-------------8-----8--8-8-8-8-7-8-------8--7-5--5-5-5-5--5-5-5-5--
g--------------------------------------------7-----------------------



Em
Ако умра ил загина
D              B
не мой да ме жалите
Em
напийте се с руйно вино
B               Em
скършайте ги чашите.


Fill
e------7-5--------------
b--7-8-----7h8p7--5-----
g----------------7------

Припев:
 
   Am     Em    Am        Em
   :Е e e e    верни другари
   Am       Em     B         Em
   песна запейте, мене спомняйте:



Ако умра ил загина
поп не мой да викате
Вие на гроб да ми дойте
оро да заиграте

Припев :

Ако умра ил загина
kе останат спомени
що съм лудо лудовало
на младите години.

Припев :


акорди за китара

акорди за пиано

видео клип


© 2007-2016 akordite.com - Акорди и таблатури на български песни

Вход






Забравена парола
Нямате достъп?
Регистрирайте се!!!

Статистика

Песни: 1366
Потребители: 11731

В момента онлайн:

7 госта