[Всички песни]
[Скрий Акордите]
[Редактирай песента]

Печат
Гама
C : G : D : A : E : B : F# : C# : F : Bb : Eb : Ab : Db : Gb

Катерино моме


Изпълнител: Народни песни

Изпратил: pulse@mail.bg


Am       E     Dm    E
Kатерино моме, Катерино,
Am       E     Dm    E
Kатерино моме, Катерино,
E                Am   Dm   E
защо си толкоз, моме, убава,
E                Am   Dm   E
защо си толкоз, моме, гиздава.

Каква си вода, моме, ти пила,
Каква си трева, моме, газила,
Каква те й майка, моме, раждала,
Каква те й майка, моме, гледала.

Я съм си, мило либе, хубава,
Я съм си, мило либе, гиздава,
Оти съм расла, либе, в планина
Оти съм расла, либе, в пирина.

Пиринска вода, либе, съм пила,
Пиринска трева, либе, газила,
Българска майка ме е раждала,
Майка юначна, либе гледала,
Българска майка ме е гледала.


------------------------------------------

Изпратил: "Anton Gavrailov" 


(***тук има някой акорди дето не пасват 100%, като Е7 напр.***)

(A)Kатерино моме, (Dm)катери(Am)но, /2
а(G)що си толкоз, моме(Dm), (E7)убава(Am),
Защо си толкоз, моме, гиздава.


Каква си вода, моме, ти пила,
Каква си трева, моме, газила,
Каква те й майка, моме, раждала,
Каква те й майка, моме, гледала.

Я съм си, мило либе, хубава,
Я съм си, мило либе, гиздава,
Оти съм расла, либе, в планина
Оти съм расла, либе, в пирина.

Пиринска вода, либе, съм пила,
Пиринска трева, либе, газила,
Българска майка ме е раждала,
Майка юначна, либе гледала,
Българска майка ме е гледала.


***************************Вариант 2**********************
ПЕСЕН: Катерино моме
ИЗПЪЛНИТЕЛ: Слави Трифонов
АЛБУМ: Vox Populi, vox dei
МУЗИКА: Кирил Стефанов
ТЕКСТ: Борис Калайджиев
АРАНЖИМЕНТ: Куку-бенд
Изпратил: Петър Събев (http://psabev.hit.bg)


Intro:
  
  [E]                  [Am]          [Dm]         [F]     [E]  
E-0-0-1--1-0-1---3-----5-3-5---7-----7-5-7---8----12-10-10----------
H--3------------------------------------------------------13-12-10--

  [E]                  [Am]          [Dm]         [F]     [E]  
E-0-0-1--1-0-1---3-----5-3-5---7-----7-5-7---8----12----------------
H--3----------------------------------------------------------------
x 2

Катерино моме, [Am]Ка[Dm]]те[F]рино,
Катерино моме, [Am]Ка[Dm]]те[F]рино,
[Am]защо си толкоз, [E]моме, [Dm]ху[F]ба[E]ва,
[Am]защо си толкоз, [E]моме, [Dm]гиз[F]да[E]ва?

Intro: . . . (включват се и ударни)
(Оттук нататък може да се прави нов ритъм със заглушаване,
например:[\ _ x / \]  )
Каква те майка, моме, родила? 
Каква те майка, моме, кърмила?
Каква си трева, моме, газила? 
Каква си вода, моме, ти пила?

FILL:

  [E] [Dm][E]     [Am][E] [Am]    [Dm][Am][Dm]    [E]
E--0-------1-------3---1---5-------7---5---8-------12-10-10---------
H------3----------------------------------------------------13-12-10

  [E] [Dm][E]     [Am][E] [Am]    [Dm][Am][Dm]    [E]
E--0-------1-------3---1---5-------7---5---8-------12-------
H------3----------------------------------------------------
x 2

Я съм си, мило либе, юбава, 
Я съм си, мило либе, гиздава, 
оти съм расла, либе, в планината,
оти съм расла, либе, в планината!


FILL: ... x 2

Intro (със соло на кларинет):

  [E]                  [Am]          [Dm]         [F]     [E]  
E-0-0-1--1-0-1---3-----5-3-5---7-----7-5-7---8----12-10-10----------
H--3------------------------------------------------------13-12-10--


  [E]                  [Am]          [Dm]         [F]     [E]  
E-0-0-1--1-0-1---3-----5-3-5---7-----7-5-7---8----12----------------
H--3----------------------------------------------------------------


  [E]                  [Am]          [Dm]         [F]     [E]  
E-0-0-1--1-0-1---3-----5-3-5---7-----7-5-7---8----12-10-10----------
H--3------------------------------------------------------13-12-10--
    Катери- но моме,    Ка-           те-         ри-     но... 

  [E]                  [Am]          [Dm]         [F]     [E]  
E-0-0-1--1-0-1---3-----5-3-5---7-----7-5-7---8----12----------------
H--3----------------------------------------------------------------
    Катери- но моме,    Ка-           те-         ри-     но... 



Final FILL:

  [E] [Dm][E]     [Am][E] [Am]    [Dm][Am][Dm]    [E]
E--0-------1-------3---1---5-------7---5---8-------12-10-10---------
H------3----------------------------------------------------13-12-10

  [E] [Dm][E]     [Am][E] [Am]    [Dm][F]          [E]
E--0-------1-------3---1---5-------7---5---8-------12~~
H------3-----------------------------------------------




акорди за китара

акорди за пиано

видео клип


© 2007-2017 akordite.com - Акорди и таблатури на български песни

Вход






Забравена парола
Нямате достъп?
Регистрирайте се!!!

Последни песни



Статистика

Песни: 1411
Потребители: 12746

В момента онлайн: